999
"DXF R12 Output" (www.mydxf.blogspot.com)
 0 
SECTION
 2 
HEADER
 9 
$ACADVER
 1 
AC1009
 9 
$EXTMIN
 10 
 0 
 20 
 0 
 9 
$EXTMAX
 10 
 8.5 
 20 
 11 
 0 
ENDSEC
 0 
SECTION
 2 
ENTITIES
0
LINE
8
Layer 1
10
30.272100
20
-4.805770
11
31.044796
21
-4.626032
0
LINE
8
Layer 1
10
31.044796
20
-4.626032
11
31.713647
21
-4.173467
0
LINE
8
Layer 1
10
31.713647
20
-4.173467
11
32.288072
21
-3.512474
0
LINE
8
Layer 1
10
32.288072
20
-3.512474
11
32.777486
21
-2.707449
0
LINE
8
Layer 1
10
32.777486
20
-2.707449
11
33.538950
21
-0.922891
0
LINE
8
Layer 1
10
33.538950
20
-0.922891
11
34.073370
21
0.665030
0
LINE
8
Layer 1
10
34.073370
20
0.665030
11
35.323761
21
5.464111
0
LINE
8
Layer 1
10
35.323761
20
5.464111
11
36.306790
21
10.307630
0
LINE
8
Layer 1
10
36.306790
20
10.307630
11
37.414820
21
20.777530
0
LINE
8
Layer 1
10
37.414820
20
20.777530
11
37.828730
21
29.600380
0
LINE
8
Layer 1
10
37.828730
20
29.600380
11
37.907597
21
37.035750
0
LINE
8
Layer 1
10
37.907597
20
37.035750
11
37.697246
21
44.365190
0
LINE
8
Layer 1
10
37.697246
20
44.365190
11
37.148578
21
51.847800
0
LINE
8
Layer 1
10
37.148578
20
51.847800
11
36.807823
21
55.292940
0
LINE
8
Layer 1
10
36.807823
20
55.292940
11
35.453863
21
63.485890
0
LINE
8
Layer 1
10
35.453863
20
63.485890
11
37.037760
21
60.784598
0
LINE
8
Layer 1
10
37.037760
20
60.784598
11
38.690997
21
58.884037
0
LINE
8
Layer 1
10
38.690997
20
58.884037
11
40.424742
21
57.644353
0
LINE
8
Layer 1
10
40.424742
20
57.644353
11
42.250163
21
56.925695
0
LINE
8
Layer 1
10
42.250163
20
56.925695
11
44.178427
21
56.588209
0
LINE
8
Layer 1
10
44.178427
20
56.588209
11
46.220704
21
56.492043
0
LINE
8
Layer 1
10
46.220704
20
56.492043
11
50.691963
21
56.464260
0
LINE
8
Layer 1
10
50.691963
20
56.464260
11
56.776253
21
56.271788
0
LINE
8
Layer 1
10
56.776253
20
56.271788
11
59.593517
21
56.231695
0
LINE
8
Layer 1
10
59.593517
20
56.231695
11
61.264363
21
56.112102
0
LINE
8
Layer 1
10
61.264363
20
56.112102
11
66.990849
21
56.032461
0
LINE
8
Layer 1
10
66.990849
20
56.032461
11
71.332975
21
56.248122
0
LINE
8
Layer 1
10
71.332975
20
56.248122
11
75.368446
21
56.603511
0
LINE
8
Layer 1
10
75.368446
20
56.603511
11
80.174963
21
56.943054
0
LINE
8
Layer 1
10
80.174963
20
56.943054
11
81.624876
21
57.186588
0
LINE
8
Layer 1
10
81.624876
20
57.186588
11
82.936943
21
57.665124
0
LINE
8
Layer 1
10
82.936943
20
57.665124
11
84.099073
21
58.327732
0
LINE
8
Layer 1
10
84.099073
20
58.327732
11
85.099174
21
59.123483
0
LINE
8
Layer 1
10
85.099174
20
59.123483
11
85.925153
21
60.001447
0
LINE
8
Layer 1
10
85.925153
20
60.001447
11
86.564919
21
60.910695
0
LINE
8
Layer 1
10
86.564919
20
60.910695
11
87.006380
21
61.800297
0
LINE
8
Layer 1
10
87.006380
20
61.800297
11
87.237443
21
62.619324
0
LINE
8
Layer 1
10
87.237443
20
62.619324
11
87.174145
21
63.184913
0
LINE
8
Layer 1
10
87.174145
20
63.184913
11
86.872558
21
63.828181
0
LINE
8
Layer 1
10
86.872558
20
63.828181
11
85.858703
21
65.159014
0
LINE
8
Layer 1
10
85.858703
20
65.159014
11
84.317573
21
66.676664
0
LINE
8
Layer 1
10
84.317573
20
66.676664
11
81.837144
21
68.067744
0
LINE
8
Layer 1
10
81.837144
20
68.067744
11
79.393609
21
69.157148
0
LINE
8
Layer 1
10
79.393609
20
69.157148
11
76.964322
21
70.008324
0
LINE
8
Layer 1
10
76.964322
20
70.008324
11
74.526635
21
70.684720
0
LINE
8
Layer 1
10
74.526635
20
70.684720
11
69.535481
21
71.766967
0
LINE
8
Layer 1
10
69.535481
20
71.766967
11
64.238973
21
72.911474
0
LINE
8
Layer 1
10
64.238973
20
72.911474
11
59.914093
21
73.650272
0
LINE
8
Layer 1
10
59.914093
20
73.650272
11
55.833203
21
74.227114
0
LINE
8
Layer 1
10
55.833203
20
74.227114
11
55.690674
21
74.287848
0
LINE
8
Layer 1
10
55.690674
20
74.287848
11
55.859668
21
74.361334
0
LINE
8
Layer 1
10
55.859668
20
74.361334
11
56.870451
21
74.547482
0
LINE
8
Layer 1
10
56.870451
20
74.547482
11
59.750783
21
75.082934
0
LINE
8
Layer 1
10
59.750783
20
75.082934
11
64.578898
21
76.141815
0
LINE
8
Layer 1
10
64.578898
20
76.141815
11
69.120273
21
77.227524
0
LINE
8
Layer 1
10
69.120273
20
77.227524
11
73.586155
21
78.883656
0
LINE
8
Layer 1
10
73.586155
20
78.883656
11
78.117393
21
80.686424
0
LINE
8
Layer 1
10
78.117393
20
80.686424
11
79.265162
21
81.404348
0
LINE
8
Layer 1
10
79.265162
20
81.404348
11
80.590778
21
82.400529
0
LINE
8
Layer 1
10
80.590778
20
82.400529
11
82.847083
21
84.251284
0
LINE
8
Layer 1
10
82.847083
20
84.251284
11
83.508556
21
85.015477
0
LINE
8
Layer 1
10
83.508556
20
85.015477
11
83.992740
21
85.926550
0
LINE
8
Layer 1
10
83.992740
20
85.926550
11
84.600633
21
87.509064
0
LINE
8
Layer 1
10
84.600633
20
87.509064
11
84.670473
21
88.187412
0
LINE
8
Layer 1
10
84.670473
20
88.187412
11
84.511972
21
89.013309
0
LINE
8
Layer 1
10
84.511972
20
89.013309
11
84.021480
21
90.348604
0
LINE
8
Layer 1
10
84.021480
20
90.348604
11
83.570651
21
90.845756
0
LINE
8
Layer 1
10
83.570651
20
90.845756
11
82.653014
21
91.490065
0
LINE
8
Layer 1
10
82.653014
20
91.490065
11
81.395296
21
92.127911
0
LINE
8
Layer 1
10
81.395296
20
92.127911
11
79.924220
21
92.605674
0
LINE
8
Layer 1
10
79.924220
20
92.605674
11
76.126094
21
93.160160
0
LINE
8
Layer 1
10
76.126094
20
93.160160
11
72.685350
21
93.347938
0
LINE
8
Layer 1
10
72.685350
20
93.347938
11
65.752660
21
92.874994
0
LINE
8
Layer 1
10
65.752660
20
92.874994
11
53.879760
21
90.691484
0
LINE
8
Layer 1
10
53.879760
20
90.691484
11
49.245104
21
89.490490
0
LINE
8
Layer 1
10
49.245104
20
89.490490
11
44.449850
21
88.130214
0
LINE
8
Layer 1
10
44.449850
20
88.130214
11
41.107221
21
86.808347
0
LINE
8
Layer 1
10
41.107221
20
86.808347
11
37.837140
21
85.329214
0
LINE
8
Layer 1
10
37.837140
20
85.329214
11
34.968690
21
83.862464
0
LINE
8
Layer 1
10
34.968690
20
83.862464
11
34.841234
21
84.859053
0
LINE
8
Layer 1
10
34.841234
20
84.859053
11
34.506667
21
86.577614
0
LINE
8
Layer 1
10
34.506667
20
86.577614
11
34.087107
21
88.757644
0
LINE
8
Layer 1
10
34.087107
20
88.757644
11
35.243827
21
89.182239
0
LINE
8
Layer 1
10
35.243827
20
89.182239
11
36.032351
21
89.552924
0
LINE
8
Layer 1
10
36.032351
20
89.552924
11
36.857857
21
90.133634
0
LINE
8
Layer 1
10
36.857857
20
90.133634
11
37.522675
21
90.943500
0
LINE
8
Layer 1
10
37.522675
20
90.943500
11
37.829137
21
92.001649
0
LINE
8
Layer 1
10
37.829137
20
92.001649
11
37.703214
21
93.412086
0
LINE
8
Layer 1
10
37.703214
20
93.412086
11
37.137349
21
94.527254
0
LINE
8
Layer 1
10
37.137349
20
94.527254
11
36.675206
21
94.945418
0
LINE
8
Layer 1
10
36.675206
20
94.945418
11
36.085998
21
95.255332
0
LINE
8
Layer 1
10
36.085998
20
95.255332
11
35.364033
21
95.445518
0
LINE
8
Layer 1
10
35.364033
20
95.445518
11
34.503617
21
95.504499
0
LINE
8
Layer 1
10
34.503617
20
95.504499
11
33.663541
21
95.375224
0
LINE
8
Layer 1
10
33.663541
20
95.375224
11
32.994315
21
95.051739
0
LINE
8
Layer 1
10
32.994315
20
95.051739
11
32.477802
21
94.599216
0
LINE
8
Layer 1
10
32.477802
20
94.599216
11
32.095867
21
94.082827
0
LINE
8
Layer 1
10
32.095867
20
94.082827
11
31.663192
21
93.119139
0
LINE
8
Layer 1
10
31.663192
20
93.119139
11
31.551207
21
92.682049
0
LINE
8
Layer 1
10
31.551207
20
92.682049
11
31.375361
21
93.199861
0
LINE
8
Layer 1
10
31.375361
20
93.199861
11
30.993625
21
93.547694
0
LINE
8
Layer 1
10
30.993625
20
93.547694
11
30.272077
21
93.688649
0
LINE
8
Layer 1
10
30.272100
20
-4.805770
11
29.499402
21
-4.626031
0
LINE
8
Layer 1
10
29.499402
20
-4.626031
11
28.830548
21
-4.173465
0
LINE
8
Layer 1
10
28.830548
20
-4.173465
11
28.256124
21
-3.512470
0
LINE
8
Layer 1
10
28.256124
20
-3.512470
11
27.766710
21
-2.707443
0
LINE
8
Layer 1
10
27.766710
20
-2.707443
11
27.005249
21
-0.922878
0
LINE
8
Layer 1
10
27.005249
20
-0.922878
11
26.470830
21
0.665050
0
LINE
8
Layer 1
10
26.470830
20
0.665050
11
25.220450
21
5.464117
0
LINE
8
Layer 1
10
25.220450
20
5.464117
11
24.237410
21
10.307630
0
LINE
8
Layer 1
10
24.237410
20
10.307630
11
23.129390
21
20.777530
0
LINE
8
Layer 1
10
23.129390
20
20.777530
11
22.715481
21
29.600380
0
LINE
8
Layer 1
10
22.715481
20
29.600380
11
22.636471
21
37.035760
0
LINE
8
Layer 1
10
22.636471
20
37.035760
11
22.846826
21
44.365180
0
LINE
8
Layer 1
10
22.846826
20
44.365180
11
23.395495
21
51.847790
0
LINE
8
Layer 1
10
23.395495
20
51.847790
11
23.736261
21
55.292930
0
LINE
8
Layer 1
10
23.736261
20
55.292930
11
25.090201
21
63.485880
0
LINE
8
Layer 1
10
25.090201
20
63.485880
11
23.506310
21
60.784588
0
LINE
8
Layer 1
10
23.506310
20
60.784588
11
21.853077
21
58.884027
0
LINE
8
Layer 1
10
21.853077
20
58.884027
11
20.119333
21
57.644343
0
LINE
8
Layer 1
10
20.119333
20
57.644343
11
18.293913
21
56.925685
0
LINE
8
Layer 1
10
18.293913
20
56.925685
11
16.365647
21
56.588199
0
LINE
8
Layer 1
10
16.365647
20
56.588199
11
14.323368
21
56.492033
0
LINE
8
Layer 1
10
14.323368
20
56.492033
11
9.852101
21
56.464250
0
LINE
8
Layer 1
10
9.852101
20
56.464250
11
3.767815
21
56.271778
0
LINE
8
Layer 1
10
3.767815
20
56.271778
11
0.950551
21
56.231685
0
LINE
8
Layer 1
10
0.950551
20
56.231685
11
-0.720299
21
56.112092
0
LINE
8
Layer 1
10
-0.720299
20
56.112092
11
-6.446777
21
56.032450
0
LINE
8
Layer 1
10
-6.446777
20
56.032450
11
-10.788905
21
56.248099
0
LINE
8
Layer 1
10
-10.788905
20
56.248099
11
-14.824380
21
56.603472
0
LINE
8
Layer 1
10
-14.824380
20
56.603472
11
-19.630900
21
56.943000
0
LINE
8
Layer 1
10
-19.630900
20
56.943000
11
-21.080819
21
57.186559
0
LINE
8
Layer 1
10
-21.080819
20
57.186559
11
-22.392891
21
57.665109
0
LINE
8
Layer 1
10
-22.392891
20
57.665109
11
-23.555023
21
58.327724
0
LINE
8
Layer 1
10
-23.555023
20
58.327724
11
-24.555125
21
59.123475
0
LINE
8
Layer 1
10
-24.555125
20
59.123475
11
-25.381105
21
60.001436
0
LINE
8
Layer 1
10
-25.381105
20
60.001436
11
-26.020872
21
60.910678
0
LINE
8
Layer 1
10
-26.020872
20
60.910678
11
-26.462334
21
61.800275
0
LINE
8
Layer 1
10
-26.462334
20
61.800275
11
-26.693400
21
62.619300
0
LINE
8
Layer 1
10
-26.693400
20
62.619300
11
-26.630103
21
63.184889
0
LINE
8
Layer 1
10
-26.630103
20
63.184889
11
-26.328517
21
63.828157
0
LINE
8
Layer 1
10
-26.328517
20
63.828157
11
-25.314662
21
65.158990
0
LINE
8
Layer 1
10
-25.314662
20
65.158990
11
-23.773530
21
66.676640
0
LINE
8
Layer 1
10
-23.773530
20
66.676640
11
-21.293101
21
68.067720
0
LINE
8
Layer 1
10
-21.293101
20
68.067720
11
-18.849566
21
69.157124
0
LINE
8
Layer 1
10
-18.849566
20
69.157124
11
-16.420279
21
70.008300
0
LINE
8
Layer 1
10
-16.420279
20
70.008300
11
-13.982593
21
70.684696
0
LINE
8
Layer 1
10
-13.982593
20
70.684696
11
-8.991438
21
71.766943
0
LINE
8
Layer 1
10
-8.991438
20
71.766943
11
-3.694930
21
72.911450
0
LINE
8
Layer 1
10
-3.694930
20
72.911450
11
0.629954
21
73.650248
0
LINE
8
Layer 1
10
0.629954
20
73.650248
11
4.710840
21
74.227090
0
LINE
8
Layer 1
10
4.710840
20
74.227090
11
4.853364
21
74.287824
0
LINE
8
Layer 1
10
4.853364
20
74.287824
11
4.684366
21
74.361310
0
LINE
8
Layer 1
10
4.684366
20
74.361310
11
3.673577
21
74.547458
0
LINE
8
Layer 1
10
3.673577
20
74.547458
11
0.793250
21
75.082910
0
LINE
8
Layer 1
10
0.793250
20
75.082910
11
-4.034870
21
76.141791
0
LINE
8
Layer 1
10
-4.034870
20
76.141791
11
-8.576250
21
77.227500
0
LINE
8
Layer 1
10
-8.576250
20
77.227500
11
-13.042133
21
78.883632
0
LINE
8
Layer 1
10
-13.042133
20
78.883632
11
-17.573370
21
80.686400
0
LINE
8
Layer 1
10
-17.573370
20
80.686400
11
-18.721139
21
81.404324
0
LINE
8
Layer 1
10
-18.721139
20
81.404324
11
-20.046755
21
82.400505
0
LINE
8
Layer 1
10
-20.046755
20
82.400505
11
-22.303060
21
84.251260
0
LINE
8
Layer 1
10
-22.303060
20
84.251260
11
-22.964528
21
85.015453
0
LINE
8
Layer 1
10
-22.964528
20
85.015453
11
-23.448710
21
85.926526
0
LINE
8
Layer 1
10
-23.448710
20
85.926526
11
-24.056610
21
87.509040
0
LINE
8
Layer 1
10
-24.056610
20
87.509040
11
-24.126452
21
88.187388
0
LINE
8
Layer 1
10
-24.126452
20
88.187388
11
-23.967953
21
89.013285
0
LINE
8
Layer 1
10
-23.967953
20
89.013285
11
-23.477460
21
90.348580
0
LINE
8
Layer 1
10
-23.477460
20
90.348580
11
-23.026630
21
90.845732
0
LINE
8
Layer 1
10
-23.026630
20
90.845732
11
-22.108993
21
91.490041
0
LINE
8
Layer 1
10
-22.108993
20
91.490041
11
-20.851271
21
92.127887
0
LINE
8
Layer 1
10
-20.851271
20
92.127887
11
-19.380190
21
92.605650
0
LINE
8
Layer 1
10
-19.380190
20
92.605650
11
-15.582071
21
93.160136
0
LINE
8
Layer 1
10
-15.582071
20
93.160136
11
-12.141320
21
93.347914
0
LINE
8
Layer 1
10
-12.141320
20
93.347914
11
-5.208630
21
92.874970
0
LINE
8
Layer 1
10
-5.208630
20
92.874970
11
6.664270
21
90.691460
0
LINE
8
Layer 1
10
6.664270
20
90.691460
11
11.298920
21
89.490466
0
LINE
8
Layer 1
10
11.298920
20
89.490466
11
16.094160
21
88.130190
0
LINE
8
Layer 1
10
16.094160
20
88.130190
11
19.436799
21
86.808323
0
LINE
8
Layer 1
10
19.436799
20
86.808323
11
22.706890
21
85.329190
0
LINE
8
Layer 1
10
22.706890
20
85.329190
11
25.575320
21
83.862440
0
LINE
8
Layer 1
10
25.575320
20
83.862440
11
25.702777
21
84.859029
0
LINE
8
Layer 1
10
25.702777
20
84.859029
11
26.037330
21
86.577590
0
LINE
8
Layer 1
10
26.037330
20
86.577590
11
26.456893
21
88.757620
0
LINE
8
Layer 1
10
26.456893
20
88.757620
11
25.300183
21
89.182215
0
LINE
8
Layer 1
10
25.300183
20
89.182215
11
24.511660
21
89.552900
0
LINE
8
Layer 1
10
24.511660
20
89.552900
11
23.686156
21
90.133610
0
LINE
8
Layer 1
10
23.686156
20
90.133610
11
23.021335
21
90.943476
0
LINE
8
Layer 1
10
23.021335
20
90.943476
11
22.714863
21
92.001625
0
LINE
8
Layer 1
10
22.714863
20
92.001625
11
22.840789
21
93.412062
0
LINE
8
Layer 1
10
22.840789
20
93.412062
11
23.406660
21
94.527230
0
LINE
8
Layer 1
10
23.406660
20
94.527230
11
23.868807
21
94.945394
0
LINE
8
Layer 1
10
23.868807
20
94.945394
11
24.458018
21
95.255308
0
LINE
8
Layer 1
10
24.458018
20
95.255308
11
25.179986
21
95.445494
0
LINE
8
Layer 1
10
25.179986
20
95.445494
11
26.040403
21
95.504475
0
LINE
8
Layer 1
10
26.040403
20
95.504475
11
26.880475
21
95.375200
0
LINE
8
Layer 1
10
26.880475
20
95.375200
11
27.549699
21
95.051715
0
LINE
8
Layer 1
10
27.549699
20
95.051715
11
28.066211
21
94.599192
0
LINE
8
Layer 1
10
28.066211
20
94.599192
11
28.448144
21
94.082803
0
LINE
8
Layer 1
10
28.448144
20
94.082803
11
28.880818
21
93.119115
0
LINE
8
Layer 1
10
28.880818
20
93.119115
11
28.992803
21
92.682025
0
LINE
8
Layer 1
10
28.992803
20
92.682025
11
29.168649
21
93.199837
0
LINE
8
Layer 1
10
29.168649
20
93.199837
11
29.550385
21
93.547670
0
LINE
8
Layer 1
10
29.550385
20
93.547670
11
30.271933
21
93.688625
 0 
ENDSEC
 0 
EOF